##------------------------PLEASE NOTE-----------------------##
   This file is the author's own work & represents their own
  interpretation of the song.  You may only use this file
        for private study, scholarship, or research.
##----------------------------------------------------------##
/\__  _\/\ \                /\ \  __/\ \  __            /\ \    
\/_/\ \/\ \ \___      __    \ \ \/\ \ \ \/\_\    ___    \_\ \   
   \ \ \ \ \  _ `\  /'__`\   \ \ \ \ \ \ \/\ \ /' _ `\  /'_` \  
    \ \ \ \ \ \ \ \/\  __/    \ \ \_/ \_\ \ \ \/\ \/\ \/\ \L\ \ 
     \ \_\ \ \_\ \_\ \____\    \ `\___x___/\ \_\ \_\ \_\ \___,_\
      \/_/  \/_/\/_/\/____/     '\/__//__/  \/_/\/_/\/_/\/__,_ /
                                                                
 ____  _  _     ___    __   ____    ___  ____  ____  _  _  ____  _  _  ___ 
(  _ \( \/ )   / __)  /__\ (_  _)  / __)(_  _)( ___)( \/ )( ___)( \( )/ __)
 ) _ < \  /   ( (__  /(__)\  )(    \__ \  )(   )__)  \  /  )__)  )  ( \__ \
(____/ (__)    \___)(__)(__)(__)   (___/ (__) (____)  \/  (____)(_)\_)(___/

--------------------------------------------------------------

*Interpretation by Jacky Bryant
*September, 5th 2006
*Dedicated to DJ Illingworth for contributing so many great and mostly accurate tabs on majicat.com.



 INTRO
Guitar 1
      NH              NH             2x
E||----------------------------------||
B||-----------10--------------10-----||
G||--------7------7--------7------7--||
D||--[12]------------[12]------------||
A||----------------------------------||
E||----------------------------------||


INTRO
Guitar 2
*D-Riff*

     D           D4 D  D2       Em/G        A4    A     A4   2x        
E||--------2-----3--2--0-----|--0--------0-------------------||
B||-----------3-----------2--|-----0--3-----3-----2(h)--3----||
G||-----2-----------------3--|-----------------2-------------||
D||--0-----0-----0--0--0-----|-------------------------------||
A||--------------------------|--------------0-----0----------||
E||--------------------------|--3-----3----------------------||


VERSE Part 1:

                                                                   
     D           D4 D  D2       Em/G        A4    A     A4             
E||--------2-----3--2--0-----|--0--------0-------------------||
B||-----------3-----------2--|-----0--3-----3-----2(h)--3----||
G||-----2-----------------3--|-----------------2-------------||
D||--0-----0-----0--0--0-----|-------------------------------||
A||--------------------------|--------------0-----0----------||
E||--------------------------|--3-----3----------------------||

     1. I lis-ten    to the     wind, to the wind of    my

     2. I lis-ten    to my      words but they fall far
          

     D           D4 D  D2       Em/G        A4    A     A4             
E||--------2-----3--2--0-----|--0--------0-------------------||
B||-----------3-----------2--|-----0--3-----3-----2(h)--3----||
G||-----2-----------------3--|-----------------2-------------||
D||--0-----0-----0--0--0-----|-------------------------------||
A||--------------------------|--------------0-----0----------||
E||--------------------------|--3-----3----------------------||

    soul,

    below,


    D           D4 D  D2       Em/G        A4    A     A4             
E||--------2-----3--2--0-----|--0--------0-------------------||
B||-----------3-----------2--|-----0--3-----3-----2(h)--3----||
G||-----2-----------------3--|-----------------2-------------||
D||--0-----0-----0--0--0-----|-------------------------------||
A||--------------------------|--------------0-----0----------||
E||--------------------------|--3-----3----------------------||

     where I'll end up, well I think only God really

     I let my          music   take me where my heart wants to            

     D           D4 D  D2       Em/G        A4    A     A4             
E||--------2-----3--2--0-----|--0--------0-------------------||
B||-----------3-----------2--|-----0--3-----3-----2-----0----||
G||-----2-----------------3--|-----------------2-------------||
D||--0-----0-----0--0--0-----|-------------------------------||
A||--------------------------|--------------0-----0----------||
E||--------------------------|--3-----3----------------------||

    knows.

    go.



VERSE 1 (Continued)

G       A                  G   A4  
        Iíve sat upon the set-ting

     D       v  v      
E||----------2--0--|
B||------3---3--0--|
G||----------2--0--|
D||--0-------0-----|
A||----------------|
E||----------------|

     sun


Em         G          Em      G
       but ne-ver, ne-ver, ne-ver,

     A4    A  A2      
E||---------------|
B||--3-----2p-0---|
G||-----2---------|
D||---------------|
A||--0-----0------|
E||---------------|

     ne -  ver,



G      A           G  A   D  
   I never wanted wat-er once

     D        D2    
E||--------2--0--|
B||-----3--------|
G||--------------|
D||--0-----0--0--|
A||--------------|
E||--------------|

     once,
m      G      Em  A   Em/G 
    No  never, ne-ver, ne- 


     D           D4 D  D2       Em/G        A4    A        A4             
E||--------2-----3--2--0-----|--0--------0----------------------||
B||-----------3-----------2--|-----0--3-----3-----2h-3p-2h-3----||
G||-----2-----------------3--|-----------------2----------------||
D||--0-----0-----0--0--0-----|----------------------------------||
A||--------------------------|--------------0-----0-------------||
E||--------------------------|--3-----3-------------------------||

                                                                   >D-Riff (Repeat 1x)
     ver.

VERSE 2 (Continued)

G      A                G   A4   
       I swam upon the Dev-ilís

     D       v  v      
E||----------2--0--|
B||------3---3--0--|
G||----------2--0--|
D||--0-------0-----|
A||----------------|
E||----------------|

     lake,



Em         G          Em      G
       but ne-ver, ne-ver, ne-ver,

     A4    A  A2      
E||---------------|
B||--3-----2p-0---|
G||-----2---------|
D||---------------|
A||--0-----0------|
E||---------------|

     ne -  ver,

G         A              G   A4 
   Iíll never make the same mis-

     D   D2   D    
E||--2p--0h---2--|
B||--------------|
G||--2p--0h---2--|
D||--------------|
A||--------------|
E||--------------|

     take.



Em      G      Em  A   Em/G 
    No  never, ne-ver, ne- 

    D           D4 D  D2       Em/G        A4    A        A4             
E||--------2-----3--2--0-----|--0--------0----------------------||
B||-----------3-----------2--|-----0--3-----3-----2h-3p-2h-3----||
G||-----2-----------------3--|-----------------2----------------||
D||--0-----0-----0--0--0-----|----------------------------------||
A||--------------------------|--------------0-----0-------------||
E||--------------------------|--3-----3-------------------------||

                                                                 
     ver.





OUTRO
    D           D4 D  D2       Em/G        A4    A     A4      D     D5        
E||--------2-----3--2--0-----|--0--------0-------------------|--2-----5~--||
B||-----------3-----------2--|-----0--3-----3-----2(h)--3----|-----3------||
G||-----2-----------------3--|-----------------2-------------|------------||
D||--0-----0-----0--0--0-----|-------------------------------|--0-----0~--||
A||--------------------------|--------------0-----0----------|------------||
E||--------------------------|--3-----3----------------------|------------||


NOTES:
------


Note #1: Fingerpicking is best to be done with the thumb
and index finger only (like Cat Stevens) for the picking pattern is not a usual one.
Note #2: For the strumming verses pick the bass followed by the
alternative bass string and then strum up and down. E.g.: G E||--------3--3--3--| B||--------0--0--0--| G||--------0--0--0--| D||-----0--0--------| A||--------2--------| E||--3-----3--------| CHORDS ------ D5 D4 D D2 xx0235 xx0233 xx0232 xx0230 A A4 G Em Em/G x02220 x02230 320033 022000 322000 TABULATURE LEGEND ----------------- h - Hammer on p - Pull off v - Brush down NH - Natural Harmonic [x]

Home   Guitar Tabs